  0
SECTION
  2
HEADER
  9
$ACADVER
  1
AC1009
  9
$INSBASE
 10
71.16599545032963
 20
139.5434782608726
 30
0.0
  9
$EXTMIN
 10
71.04173138162084
 20
139.5434782608726
 30
0.0
  9
$EXTMAX
 10
103.1659954503359
 20
178.464366897407
 30
0.0
  9
$LIMMIN
 10
0.0
 20
0.0
  9
$LIMMAX
 10
420.0
 20
297.0
  9
$ORTHOMODE
 70
     0
  9
$REGENMODE
 70
     0
  9
$FILLMODE
 70
     1
  9
$QTEXTMODE
 70
     0
  9
$MIRRTEXT
 70
     0
  9
$DRAGMODE
 70
     2
  9
$LTSCALE
 40
1.0
  9
$OSMODE
 70
     0
  9
$ATTMODE
 70
     1
  9
$TEXTSIZE
 40
3.5
  9
$TRACEWID
 40
0.1
  9
$TEXTSTYLE
  7
STANDARD
  9
$CLAYER
  8
0
  9
$CELTYPE
  6
BYLAYER
  9
$CECOLOR
 62
   256
  9
$DIMSCALE
 40
1.0
  9
$DIMASZ
 40
2.0
  9
$DIMEXO
 40
1.0
  9
$DIMDLI
 40
8.0
  9
$DIMRND
 40
0.0
  9
$DIMDLE
 40
0.0
  9
$DIMEXE
 40
2.0
  9
$DIMTP
 40
0.1
  9
$DIMTM
 40
0.1
  9
$DIMTXT
 40
3.5
  9
$DIMCEN
 40
2.0
  9
$DIMTSZ
 40
0.0
  9
$DIMTOL
 70
     0
  9
$DIMLIM
 70
     0
  9
$DIMTIH
 70
     0
  9
$DIMTOH
 70
     0
  9
$DIMSE1
 70
     0
  9
$DIMSE2
 70
     0
  9
$DIMTAD
 70
     1
  9
$DIMZIN
 70
     0
  9
$DIMBLK
  1

  9
$DIMASO
 70
     1
  9
$DIMSHO
 70
     0
  9
$DIMPOST
  1

  9
$DIMAPOST
  1

  9
$DIMALT
 70
     0
  9
$DIMALTD
 70
     2
  9
$DIMALTF
 40
25.39999999999999
  9
$DIMLFAC
 40
1.0
  9
$DIMTOFL
 70
     0
  9
$DIMTVP
 40
0.0
  9
$DIMTIX
 70
     0
  9
$DIMSOXD
 70
     0
  9
$DIMSAH
 70
     0
  9
$DIMBLK1
  1

  9
$DIMBLK2
  1

  9
$DIMSTYLE
  2
*UNNAMED
  9
$DIMCLRD
 70
     0
  9
$DIMCLRE
 70
     0
  9
$DIMCLRT
 70
     0
  9
$DIMTFAC
 40
1.0
  9
$DIMGAP
 40
0.09
  9
$LUNITS
 70
     2
  9
$LUPREC
 70
     3
  9
$SKETCHINC
 40
0.1
  9
$FILLETRAD
 40
20.0
  9
$AUNITS
 70
     0
  9
$AUPREC
 70
     1
  9
$MENU
  1

  9
$ELEVATION
 40
0.0
  9
$PELEVATION
 40
0.0
  9
$THICKNESS
 40
0.0
  9
$LIMCHECK
 70
     0
  9
$BLIPMODE
 70
     0
  9
$CHAMFERA
 40
0.0
  9
$CHAMFERB
 40
0.0
  9
$SKPOLY
 70
     1
  9
$TDCREATE
 40
2448544.567115162
  9
$TDUPDATE
 40
2449393.437846412
  9
$TDINDWG
 40
0.0004768519
  9
$TDUSRTIMER
 40
0.0004768519
  9
$USRTIMER
 70
     1
  9
$ANGBASE
 50
0.0
  9
$ANGDIR
 70
     0
  9
$PDMODE
 70
     0
  9
$PDSIZE
 40
0.0
  9
$PLINEWID
 40
0.0
  9
$COORDS
 70
     2
  9
$SPLFRAME
 70
     0
  9
$SPLINETYPE
 70
     6
  9
$SPLINESEGS
 70
     8
  9
$ATTDIA
 70
     1
  9
$ATTREQ
 70
     1
  9
$HANDLING
 70
     0
  9
$HANDSEED
  5
A2
  9
$SURFTAB1
 70
     6
  9
$SURFTAB2
 70
     6
  9
$SURFTYPE
 70
     6
  9
$SURFU
 70
     6
  9
$SURFV
 70
     6
  9
$UCSNAME
  2

  9
$UCSORG
 10
0.0
 20
0.0
 30
0.0
  9
$UCSXDIR
 10
1.0
 20
0.0
 30
0.0
  9
$UCSYDIR
 10
0.0
 20
1.0
 30
0.0
  9
$PUCSNAME
  2

  9
$PUCSORG
 10
0.0
 20
0.0
 30
0.0
  9
$PUCSXDIR
 10
1.0
 20
0.0
 30
0.0
  9
$PUCSYDIR
 10
0.0
 20
1.0
 30
0.0
  9
$USERI1
 70
     0
  9
$USERI2
 70
     3
  9
$USERI3
 70
    15
  9
$USERI4
 70
     0
  9
$USERI5
 70
     0
  9
$USERR1
 40
1.0
  9
$USERR2
 40
1.0
  9
$USERR3
 40
0.0
  9
$USERR4
 40
1.0
  9
$USERR5
 40
0.0
  9
$WORLDVIEW
 70
     1
  9
$SHADEDGE
 70
     3
  9
$SHADEDIF
 70
    70
  9
$TILEMODE
 70
     1
  9
$MAXACTVP
 70
    16
  9
$PINSBASE
 10
0.0
 20
0.0
 30
0.0
  9
$PLIMCHECK
 70
     0
  9
$PEXTMIN
 10
1.000000000000000E+20
 20
1.000000000000000E+20
 30
1.000000000000000E+20
  9
$PEXTMAX
 10
-1.000000000000000E+20
 20
-1.000000000000000E+20
 30
-1.000000000000000E+20
  9
$PLIMMIN
 10
0.0
 20
0.0
  9
$PLIMMAX
 10
12.0
 20
9.0
  9
$UNITMODE
 70
     0
  9
$VISRETAIN
 70
     0
  9
$PLINEGEN
 70
     0
  9
$PSLTSCALE
 70
     0
  9
$TREEDEPTH
 70
  3020
  9
$DWGCODEPAGE
  3
undefined
  0
ENDSEC
  0
SECTION
  2
TABLES
  0
TABLE
  2
VPORT
 70
     2
  0
VPORT
  2
*ACTIVE
 70
     0
 10
0.0
 20
0.0
 11
1.0
 21
1.0
 12
98.03547640061178
 22
160.6064188363057
 13
0.0
 23
0.0
 14
1.0
 24
1.0
 15
10.0
 25
10.0
 16
0.0
 26
0.0
 36
1.0
 17
0.0
 27
0.0
 37
0.0
 40
42.12588115086608
 41
1.275675675675675
 42
50.0
 43
0.0
 44
0.0
 50
0.0
 51
0.0
 71
     0
 72
 20000
 73
     1
 74
     0
 75
     0
 76
     0
 77
     0
 78
     0
  0
ENDTAB
  0
TABLE
  2
LTYPE
 70
     3
  0
LTYPE
  2
AUSGEZOGEN
 70
    64
  3
Solid line
 72
    65
 73
     0
 40
0.0
  0
LTYPE
  2
ITEM-STRICHPUNKT
 70
    64
  3
__ . __ . __
 72
    65
 73
     4
 40
3.599999999999999
 49
2.399999999999999
 49
-0.6
 49
0.0
 49
-0.6
  0
LTYPE
  2
ITEM-STRICHPGR
 70
    64
  3
____ . ____ . ____ . ____ . ____ . ____ . ____
 72
    65
 73
     4
 40
15.0
 49
10.0
 49
-2.5
 49
0.0
 49
-2.5
  0
ENDTAB
  0
TABLE
  2
LAYER
 70
     5
  0
LAYER
  2
0
 70
     0
 62
     7
  6
AUSGEZOGEN
  0
LAYER
  2
ITEM_50
 70
    64
 62
     7
  6
AUSGEZOGEN
  0
LAYER
  2
ITEM_HILFE
 70
    64
 62
     3
  6
AUSGEZOGEN
  0
LAYER
  2
ITEM_STP
 70
    64
 62
     4
  6
ITEM-STRICHPUNKT
  0
LAYER
  2
ITEM_STPG
 70
    64
 62
     4
  6
ITEM-STRICHPGR
  0
ENDTAB
  0
TABLE
  2
STYLE
 70
     1
  0
STYLE
  2
STANDARD
 70
     0
 40
0.0
 41
1.0
 50
0.0
 71
     0
 42
3.5
  3
iso
  4

  0
ENDTAB
  0
TABLE
  2
VIEW
 70
     0
  0
ENDTAB
  0
TABLE
  2
UCS
 70
     0
  0
ENDTAB
  0
TABLE
  2
APPID
 70
     1
  0
APPID
  2
ACAD
 70
    64
  0
ENDTAB
  0
TABLE
  2
DIMSTYLE
 70
     0
  0
ENDTAB
  0
ENDSEC
  0
SECTION
  2
BLOCKS
  0
ENDSEC
  0
SECTION
  2
ENTITIES
  0
LINE
  8
ITEM_50
 10
71.16599545032963
 20
154.5434782608726
 30
0.0
 11
71.16599545032963
 21
144.5434782608726
 31
0.0
  0
LINE
  8
ITEM_50
 10
71.16599545032963
 20
144.5434782608726
 30
0.0
 11
83.16599545032963
 21
144.5434782608726
 31
0.0
  0
LINE
  8
ITEM_50
 10
83.16599545032963
 20
144.5434782608726
 30
0.0
 11
83.16599545032963
 21
154.5434782608726
 31
0.0
  0
LINE
  8
ITEM_50
 10
83.16599545032963
 20
154.5434782608726
 30
0.0
 11
71.16599545032963
 21
154.5434782608726
 31
0.0
  0
LINE
  8
ITEM_50
 10
74.16599545032963
 20
154.5434782608726
 30
0.0
 11
74.16599545032963
 21
144.5434782608726
 31
0.0
  0
LINE
  8
ITEM_50
 10
80.16599545032963
 20
154.5434782608726
 30
0.0
 11
80.16599545032963
 21
144.5434782608726
 31
0.0
  0
LINE
  8
ITEM_STPG
 10
77.16599545032963
 20
159.5434782608726
 30
0.0
 11
77.16599545032963
 21
139.5434782608726
 31
0.0
  0
LINE
  8
ITEM_50
 10
103.1659954503359
 20
174.5434782608664
 30
0.0
 11
93.16599545033591
 21
174.5434782608664
 31
0.0
  0
LINE
  8
ITEM_50
 10
93.16599545033591
 20
174.5434782608664
 30
0.0
 11
93.16599545033591
 21
177.5934782608664
 31
0.0
  0
LINE
  8
ITEM_50
 10
93.16599545033591
 20
177.5934782608664
 30
0.0
 11
103.1659954503359
 21
177.5934782608664
 31
0.0
  0
LINE
  8
ITEM_50
 10
103.1659954503359
 20
177.5934782608664
 30
0.0
 11
103.1659954503359
 21
174.5434782608664
 31
0.0
  0
LINE
  8
ITEM_50
 10
103.1659954503359
 20
175.5434782608664
 30
0.0
 11
93.16599545033591
 21
175.5434782608664
 31
0.0
  0
CIRCLE
  8
ITEM_50
 10
77.16599545033278
 20
174.5934782608757
 30
0.0
 40
3.0
  0
ARC
  8
ITEM_50
 10
80.56599545033219
 20
175.1434782608695
 30
0.0
 40
0.4
 50
89.99999999999882
 51
179.9999999999994
  0
ARC
  8
ITEM_50
 10
73.7659954503334
 20
175.1434782608695
 30
0.0
 40
0.4
 50
0.0000000000003562
 51
90.00000000000122
  0
ARC
  8
ITEM_50
 10
82.3159954503327
 20
173.3434782608695
 30
0.0
 40
1.2
 50
90.0
 51
180.0
  0
ARC
  8
ITEM_50
 10
72.0159954503328
 20
173.3434782608695
 30
0.0
 40
1.2
 50
0.0
 51
90.0
  0
LINE
  8
ITEM_50
 10
71.16599545033278
 20
174.9434782608695
 30
0.0
 11
71.16599545033278
 21
174.7434782608695
 31
0.0
  0
LINE
  8
ITEM_50
 10
71.36599545033277
 20
174.5434782608695
 30
0.0
 11
72.0159954503328
 21
174.5434782608695
 31
0.0
  0
LINE
  8
ITEM_50
 10
74.21599545033279
 20
164.5434782608695
 30
0.0
 11
77.16599545033278
 21
164.5434782608695
 31
0.0
  0
LINE
  8
ITEM_50
 10
74.66599545033346
 20
165.8434782608695
 30
0.0
 11
76.01599545033278
 21
165.8434782608695
 31
0.0
  0
LINE
  8
ITEM_50
 10
76.51599545033278
 20
166.3434782608695
 30
0.0
 11
76.51599545033278
 21
170.9444782608751
 31
0.0
  0
LINE
  8
ITEM_50
 10
77.16499545033278
 20
171.5934782608751
 30
0.0
 11
77.16599545033278
 21
171.5934782608751
 31
0.0
  0
ARC
  8
ITEM_50
 10
77.16499545033278
 20
170.9444782608751
 30
0.0
 40
0.649
 50
90.0
 51
180.0
  0
ARC
  8
ITEM_50
 10
76.01599545033278
 20
166.3434782608695
 30
0.0
 40
0.5
 50
270.0
 51
0.0
  0
LINE
  8
ITEM_50
 10
74.16599545033346
 20
166.3434782608695
 30
0.0
 11
74.16599545033341
 21
175.1434782608695
 31
0.0
  0
ARC
  8
ITEM_50
 10
74.66599545033346
 20
166.3434782608695
 30
0.0
 40
0.5
 50
180.0
 51
270.0
  0
ARC
  8
ITEM_50
 10
71.76599545033278
 20
174.9434782608695
 30
0.0
 40
0.6
 50
90.0
 51
180.0
  0
ARC
  8
ITEM_50
 10
71.36599545033277
 20
174.7434782608695
 30
0.0
 40
0.2
 50
180.0
 51
270.0
  0
LINE
  8
ITEM_50
 10
73.7659954503334
 20
175.5434782608695
 30
0.0
 11
71.76599545033278
 21
175.5434782608695
 31
0.0
  0
LINE
  8
ITEM_50
 10
73.21599545033279
 20
165.5434782608695
 30
0.0
 11
73.21599545033279
 21
173.3434782608695
 31
0.0
  0
ARC
  8
ITEM_50
 10
74.21599545033279
 20
165.5434782608695
 30
0.0
 40
1.0
 50
180.0
 51
270.0
  0
ARC
  8
ITEM_50
 10
80.11599545033271
 20
165.5434782608695
 30
0.0
 40
1.0
 50
270.0
 51
0.000000000000007
  0
LINE
  8
ITEM_50
 10
81.11599545033271
 20
165.5434782608695
 30
0.0
 11
81.11599545033271
 21
173.3434782608695
 31
0.0
  0
LINE
  8
ITEM_50
 10
80.56599545033219
 20
175.5434782608695
 30
0.0
 11
82.56599545033273
 21
175.5434782608695
 31
0.0
  0
ARC
  8
ITEM_50
 10
82.96599545033274
 20
174.7434782608695
 30
0.0
 40
0.2
 50
270.0
 51
0.000000000000007
  0
ARC
  8
ITEM_50
 10
82.56599545033273
 20
174.9434782608695
 30
0.0
 40
0.6
 50
0.000000000000007
 51
90.0
  0
ARC
  8
ITEM_50
 10
79.6659954503321
 20
166.3434782608695
 30
0.0
 40
0.5
 50
270.0
 51
0.000000000000007
  0
LINE
  8
ITEM_50
 10
80.1659954503321
 20
166.3434782608695
 30
0.0
 11
80.16599545033218
 21
175.1434782608695
 31
0.0
  0
ARC
  8
ITEM_50
 10
78.31599545033273
 20
166.3434782608695
 30
0.0
 40
0.5
 50
180.0
 51
270.0
  0
ARC
  8
ITEM_50
 10
77.16699545033273
 20
170.9444782608751
 30
0.0
 40
0.649
 50
0.000000000000007
 51
90.0
  0
LINE
  8
ITEM_50
 10
77.81599545033273
 20
166.3434782608695
 30
0.0
 11
77.81599545033273
 21
170.9444782608751
 31
0.0
  0
LINE
  8
ITEM_50
 10
79.6659954503321
 20
165.8434782608695
 30
0.0
 11
78.31599545033273
 21
165.8434782608695
 31
0.0
  0
LINE
  8
ITEM_50
 10
80.11599545033271
 20
164.5434782608695
 30
0.0
 11
77.16599545033272
 21
164.5434782608695
 31
0.0
  0
LINE
  8
ITEM_50
 10
82.96599545033274
 20
174.5434782608695
 30
0.0
 11
82.3159954503327
 21
174.5434782608695
 31
0.0
  0
LINE
  8
ITEM_50
 10
83.16599545033272
 20
174.9434782608695
 30
0.0
 11
83.16599545033272
 21
174.7434782608695
 31
0.0
  0
LINE
  8
ITEM_STP
 10
77.16599545033275
 20
178.464366897407
 30
0.0
 11
77.16599545033278
 21
163.9947840817043
 31
0.0
  0
POINT
  8
ITEM_HILFE
 10
77.16599545033278
 20
174.5434782608695
 30
0.0
  0
ENDSEC
  0
EOF
